ISO-10303-21;
HEADER;
FILE_DESCRIPTION((''),'2;1');
FILE_NAME('191U9908','2023-04-04T09:54:39',('U375483'),(
'DANFOSS COMMERCIAL COMPRESSOR'),'CREO PARAMETRIC BY PTC INC, 2022124',
'CREO PARAMETRIC BY PTC INC, 2022124','');
FILE_SCHEMA(('CONFIG_CONTROL_DESIGN'));
ENDSEC;
DATA;
#1=CARTESIAN_POINT('',(0.E0,2.8E1,0.E0));
#2=DIRECTION('',(0.E0,-1.E0,0.E0));
#3=DIRECTION('',(1.E0,0.E0,0.E0));
#4=AXIS2_PLACEMENT_3D('',#1,#2,#3);
#6=DIRECTION('',(0.E0,-1.E0,0.E0));
#7=VECTOR('',#6,4.E0);
#8=CARTESIAN_POINT('',(8.2E0,2.8E1,0.E0));
#9=LINE('',#8,#7);
#10=DIRECTION('',(0.E0,-1.E0,0.E0));
#11=VECTOR('',#10,4.E0);
#12=CARTESIAN_POINT('',(-8.2E0,2.8E1,0.E0));
#13=LINE('',#12,#11);
#14=CARTESIAN_POINT('',(0.E0,2.8E1,0.E0));
#15=DIRECTION('',(0.E0,1.E0,0.E0));
#16=DIRECTION('',(1.E0,0.E0,0.E0));
#17=AXIS2_PLACEMENT_3D('',#14,#15,#16);
#19=CARTESIAN_POINT('',(0.E0,2.4E1,0.E0));
#20=DIRECTION('',(0.E0,1.E0,0.E0));
#21=DIRECTION('',(1.E0,0.E0,0.E0));
#22=AXIS2_PLACEMENT_3D('',#19,#20,#21);
#24=CARTESIAN_POINT('',(0.E0,2.4E1,0.E0));
#25=DIRECTION('',(0.E0,-1.E0,0.E0));
#26=DIRECTION('',(1.E0,0.E0,0.E0));
#27=AXIS2_PLACEMENT_3D('',#24,#25,#26);
#29=CARTESIAN_POINT('',(0.E0,2.4E1,0.E0));
#30=DIRECTION('',(0.E0,-1.E0,0.E0));
#31=DIRECTION('',(1.E0,0.E0,0.E0));
#32=AXIS2_PLACEMENT_3D('',#29,#30,#31);
#34=DIRECTION('',(0.E0,1.E0,0.E0));
#35=VECTOR('',#34,3.7E0);
#36=CARTESIAN_POINT('',(8.5E0,2.4E1,0.E0));
#37=LINE('',#36,#35);
#38=DIRECTION('',(0.E0,1.E0,0.E0));
#39=VECTOR('',#38,3.7E0);
#40=CARTESIAN_POINT('',(-8.5E0,2.4E1,0.E0));
#41=LINE('',#40,#39);
#42=CARTESIAN_POINT('',(0.E0,2.4E1,0.E0));
#43=DIRECTION('',(0.E0,1.E0,0.E0));
#44=DIRECTION('',(1.E0,0.E0,0.E0));
#45=AXIS2_PLACEMENT_3D('',#42,#43,#44);
#47=CARTESIAN_POINT('',(0.E0,2.77E1,0.E0));
#48=DIRECTION('',(0.E0,1.E0,0.E0));
#49=DIRECTION('',(1.E0,0.E0,0.E0));
#50=AXIS2_PLACEMENT_3D('',#47,#48,#49);
#52=CARTESIAN_POINT('',(0.E0,2.77E1,0.E0));
#53=DIRECTION('',(0.E0,-1.E0,0.E0));
#54=DIRECTION('',(1.E0,0.E0,0.E0));
#55=AXIS2_PLACEMENT_3D('',#52,#53,#54);
#57=CARTESIAN_POINT('',(0.E0,2.77E1,0.E0));
#58=DIRECTION('',(0.E0,-1.E0,0.E0));
#59=DIRECTION('',(1.E0,0.E0,0.E0));
#60=AXIS2_PLACEMENT_3D('',#57,#58,#59);
#62=DIRECTION('',(0.E0,1.E0,0.E0));
#63=VECTOR('',#62,3.E-1);
#64=CARTESIAN_POINT('',(1.1E1,2.77E1,0.E0));
#65=LINE('',#64,#63);
#66=DIRECTION('',(0.E0,1.E0,0.E0));
#67=VECTOR('',#66,3.E-1);
#68=CARTESIAN_POINT('',(-1.1E1,2.77E1,0.E0));
#69=LINE('',#68,#67);
#70=CARTESIAN_POINT('',(0.E0,2.77E1,0.E0));
#71=DIRECTION('',(0.E0,1.E0,0.E0));
#72=DIRECTION('',(1.E0,0.E0,0.E0));
#73=AXIS2_PLACEMENT_3D('',#70,#71,#72);
#75=CARTESIAN_POINT('',(0.E0,2.8E1,0.E0));
#76=DIRECTION('',(0.E0,1.E0,0.E0));
#77=DIRECTION('',(1.E0,0.E0,0.E0));
#78=AXIS2_PLACEMENT_3D('',#75,#76,#77);
#80=CARTESIAN_POINT('',(0.E0,2.8E1,0.E0));
#81=DIRECTION('',(0.E0,-1.E0,0.E0));
#82=DIRECTION('',(1.E0,0.E0,0.E0));
#83=AXIS2_PLACEMENT_3D('',#80,#81,#82);
#85=CARTESIAN_POINT('',(8.2E0,2.8E1,0.E0));
#86=CARTESIAN_POINT('',(8.2E0,2.4E1,0.E0));
#87=VERTEX_POINT('',#85);
#88=VERTEX_POINT('',#86);
#89=CARTESIAN_POINT('',(8.5E0,2.4E1,0.E0));
#90=CARTESIAN_POINT('',(8.5E0,2.77E1,0.E0));
#91=VERTEX_POINT('',#89);
#92=VERTEX_POINT('',#90);
#93=CARTESIAN_POINT('',(1.1E1,2.77E1,0.E0));
#94=CARTESIAN_POINT('',(1.1E1,2.8E1,0.E0));
#95=VERTEX_POINT('',#93);
#96=VERTEX_POINT('',#94);
#97=CARTESIAN_POINT('',(-8.2E0,2.8E1,0.E0));
#98=CARTESIAN_POINT('',(-8.2E0,2.4E1,0.E0));
#99=VERTEX_POINT('',#97);
#100=VERTEX_POINT('',#98);
#101=CARTESIAN_POINT('',(-8.5E0,2.4E1,0.E0));
#102=CARTESIAN_POINT('',(-8.5E0,2.77E1,0.E0));
#103=VERTEX_POINT('',#101);
#104=VERTEX_POINT('',#102);
#105=CARTESIAN_POINT('',(-1.1E1,2.77E1,0.E0));
#106=CARTESIAN_POINT('',(-1.1E1,2.8E1,0.E0));
#107=VERTEX_POINT('',#105);
#108=VERTEX_POINT('',#106);
#109=CARTESIAN_POINT('',(0.E0,2.94E1,0.E0));
#110=DIRECTION('',(0.E0,-1.E0,0.E0));
#111=DIRECTION('',(-1.E0,0.E0,0.E0));
#112=AXIS2_PLACEMENT_3D('',#109,#110,#111);
#113=CYLINDRICAL_SURFACE('',#112,8.2E0);
#115=ORIENTED_EDGE('',*,*,#114,.F.);
#117=ORIENTED_EDGE('',*,*,#116,.T.);
#119=ORIENTED_EDGE('',*,*,#118,.T.);
#121=ORIENTED_EDGE('',*,*,#120,.F.);
#122=EDGE_LOOP('',(#115,#117,#119,#121));
#123=FACE_OUTER_BOUND('',#122,.F.);
#124=ADVANCED_FACE('',(#123),#113,.F.);
#125=CARTESIAN_POINT('',(0.E0,2.94E1,0.E0));
#126=DIRECTION('',(0.E0,-1.E0,0.E0));
#127=DIRECTION('',(-1.E0,0.E0,0.E0));
#128=AXIS2_PLACEMENT_3D('',#125,#126,#127);
#129=CYLINDRICAL_SURFACE('',#128,8.2E0);
#130=ORIENTED_EDGE('',*,*,#114,.T.);
#132=ORIENTED_EDGE('',*,*,#131,.T.);
#133=ORIENTED_EDGE('',*,*,#118,.F.);
#135=ORIENTED_EDGE('',*,*,#134,.F.);
#136=EDGE_LOOP('',(#130,#132,#133,#135));
#137=FACE_OUTER_BOUND('',#136,.F.);
#138=ADVANCED_FACE('',(#137),#129,.F.);
#139=CARTESIAN_POINT('',(0.E0,2.4E1,0.E0));
#140=DIRECTION('',(0.E0,-1.E0,0.E0));
#141=DIRECTION('',(-1.E0,0.E0,0.E0));
#142=AXIS2_PLACEMENT_3D('',#139,#140,#141);
#143=PLANE('',#142);
#145=ORIENTED_EDGE('',*,*,#144,.F.);
#147=ORIENTED_EDGE('',*,*,#146,.T.);
#148=EDGE_LOOP('',(#145,#147));
#149=FACE_OUTER_BOUND('',#148,.F.);
#150=ORIENTED_EDGE('',*,*,#131,.F.);
#151=ORIENTED_EDGE('',*,*,#120,.T.);
#152=EDGE_LOOP('',(#150,#151));
#153=FACE_BOUND('',#152,.F.);
#154=ADVANCED_FACE('',(#149,#153),#143,.T.);
#155=CARTESIAN_POINT('',(0.E0,2.94E1,0.E0));
#156=DIRECTION('',(0.E0,-1.E0,0.E0));
#157=DIRECTION('',(-1.E0,0.E0,0.E0));
#158=AXIS2_PLACEMENT_3D('',#155,#156,#157);
#159=CYLINDRICAL_SURFACE('',#158,8.5E0);
#161=ORIENTED_EDGE('',*,*,#160,.F.);
#162=ORIENTED_EDGE('',*,*,#144,.T.);
#164=ORIENTED_EDGE('',*,*,#163,.T.);
#166=ORIENTED_EDGE('',*,*,#165,.F.);
#167=EDGE_LOOP('',(#161,#162,#164,#166));
#168=FACE_OUTER_BOUND('',#167,.F.);
#169=ADVANCED_FACE('',(#168),#159,.T.);
#170=CARTESIAN_POINT('',(0.E0,2.94E1,0.E0));
#171=DIRECTION('',(0.E0,-1.E0,0.E0));
#172=DIRECTION('',(-1.E0,0.E0,0.E0));
#173=AXIS2_PLACEMENT_3D('',#170,#171,#172);
#174=CYLINDRICAL_SURFACE('',#173,8.5E0);
#175=ORIENTED_EDGE('',*,*,#160,.T.);
#177=ORIENTED_EDGE('',*,*,#176,.T.);
#178=ORIENTED_EDGE('',*,*,#163,.F.);
#179=ORIENTED_EDGE('',*,*,#146,.F.);
#180=EDGE_LOOP('',(#175,#177,#178,#179));
#181=FACE_OUTER_BOUND('',#180,.F.);
#182=ADVANCED_FACE('',(#181),#174,.T.);
#183=CARTESIAN_POINT('',(0.E0,2.77E1,0.E0));
#184=DIRECTION('',(0.E0,-1.E0,0.E0));
#185=DIRECTION('',(-1.E0,0.E0,0.E0));
#186=AXIS2_PLACEMENT_3D('',#183,#184,#185);
#187=PLANE('',#186);
#189=ORIENTED_EDGE('',*,*,#188,.F.);
#191=ORIENTED_EDGE('',*,*,#190,.T.);
#192=EDGE_LOOP('',(#189,#191));
#193=FACE_OUTER_BOUND('',#192,.F.);
#194=ORIENTED_EDGE('',*,*,#176,.F.);
#195=ORIENTED_EDGE('',*,*,#165,.T.);
#196=EDGE_LOOP('',(#194,#195));
#197=FACE_BOUND('',#196,.F.);
#198=ADVANCED_FACE('',(#193,#197),#187,.T.);
#199=CARTESIAN_POINT('',(0.E0,2.94E1,0.E0));
#200=DIRECTION('',(0.E0,-1.E0,0.E0));
#201=DIRECTION('',(-1.E0,0.E0,0.E0));
#202=AXIS2_PLACEMENT_3D('',#199,#200,#201);
#203=CYLINDRICAL_SURFACE('',#202,1.1E1);
#205=ORIENTED_EDGE('',*,*,#204,.F.);
#206=ORIENTED_EDGE('',*,*,#188,.T.);
#208=ORIENTED_EDGE('',*,*,#207,.T.);
#210=ORIENTED_EDGE('',*,*,#209,.F.);
#211=EDGE_LOOP('',(#205,#206,#208,#210));
#212=FACE_OUTER_BOUND('',#211,.F.);
#213=ADVANCED_FACE('',(#212),#203,.T.);
#214=CARTESIAN_POINT('',(0.E0,2.94E1,0.E0));
#215=DIRECTION('',(0.E0,-1.E0,0.E0));
#216=DIRECTION('',(-1.E0,0.E0,0.E0));
#217=AXIS2_PLACEMENT_3D('',#214,#215,#216);
#218=CYLINDRICAL_SURFACE('',#217,1.1E1);
#219=ORIENTED_EDGE('',*,*,#204,.T.);
#221=ORIENTED_EDGE('',*,*,#220,.T.);
#222=ORIENTED_EDGE('',*,*,#207,.F.);
#223=ORIENTED_EDGE('',*,*,#190,.F.);
#224=EDGE_LOOP('',(#219,#221,#222,#223));
#225=FACE_OUTER_BOUND('',#224,.F.);
#226=ADVANCED_FACE('',(#225),#218,.T.);
#227=CARTESIAN_POINT('',(0.E0,2.8E1,0.E0));
#228=DIRECTION('',(0.E0,-1.E0,0.E0));
#229=DIRECTION('',(-1.E0,0.E0,0.E0));
#230=AXIS2_PLACEMENT_3D('',#227,#228,#229);
#231=PLANE('',#230);
#232=ORIENTED_EDGE('',*,*,#220,.F.);
#233=ORIENTED_EDGE('',*,*,#209,.T.);
#234=EDGE_LOOP('',(#232,#233));
#235=FACE_OUTER_BOUND('',#234,.F.);
#236=ORIENTED_EDGE('',*,*,#116,.F.);
#237=ORIENTED_EDGE('',*,*,#134,.T.);
#238=EDGE_LOOP('',(#236,#237));
#239=FACE_BOUND('',#238,.F.);
#240=ADVANCED_FACE('',(#235,#239),#231,.F.);
#243=CARTESIAN_POINT('',(0.E0,2.8E1,0.E0));
#244=DIRECTION('',(0.E0,1.E0,0.E0));
#245=DIRECTION('',(-1.E0,0.E0,0.E0));
#246=AXIS2_PLACEMENT_3D('',#243,#244,#245);
#248=DIRECTION('',(4.281783839219E-2,-9.990828958177E-1,0.E0));
#249=VECTOR('',#248,2.802570248897E1);
#250=CARTESIAN_POINT('',(-8.2E0,2.8E1,0.E0));
#251=LINE('',#250,#249);
#252=DIRECTION('',(-4.281783839219E-2,-9.990828958177E-1,0.E0));
#253=VECTOR('',#252,2.802570248897E1);
#254=CARTESIAN_POINT('',(8.2E0,2.8E1,0.E0));
#255=LINE('',#254,#253);
#256=CARTESIAN_POINT('',(0.E0,2.8E1,0.E0));
#257=DIRECTION('',(0.E0,-1.E0,0.E0));
#258=DIRECTION('',(-1.E0,0.E0,0.E0));
#259=AXIS2_PLACEMENT_3D('',#256,#257,#258);
#261=CARTESIAN_POINT('',(0.E0,2.842170943040E-14,0.E0));
#262=DIRECTION('',(0.E0,-1.E0,0.E0));
#263=DIRECTION('',(-1.E0,0.E0,0.E0));
#264=AXIS2_PLACEMENT_3D('',#261,#262,#263);
#266=CARTESIAN_POINT('',(0.E0,2.842170943040E-14,0.E0));
#267=DIRECTION('',(0.E0,1.E0,0.E0));
#268=DIRECTION('',(-1.E0,0.E0,0.E0));
#269=AXIS2_PLACEMENT_3D('',#266,#267,#268);
#271=CARTESIAN_POINT('',(0.E0,0.E0,0.E0));
#272=DIRECTION('',(0.E0,1.E0,0.E0));
#273=DIRECTION('',(-1.E0,0.E0,0.E0));
#274=AXIS2_PLACEMENT_3D('',#271,#272,#273);
#276=DIRECTION('',(-4.281783839218E-2,9.990828958177E-1,0.E0));
#277=VECTOR('',#276,2.802570248897E1);
#278=CARTESIAN_POINT('',(-6.699724616190E0,0.E0,0.E0));
#279=LINE('',#278,#277);
#280=DIRECTION('',(4.281783839219E-2,9.990828958177E-1,0.E0));
#281=VECTOR('',#280,2.802570248897E1);
#282=CARTESIAN_POINT('',(6.699724616190E0,0.E0,0.E0));
#283=LINE('',#282,#281);
#284=CARTESIAN_POINT('',(0.E0,0.E0,0.E0));
#285=DIRECTION('',(0.E0,-1.E0,0.E0));
#286=DIRECTION('',(-1.E0,0.E0,0.E0));
#287=AXIS2_PLACEMENT_3D('',#284,#285,#286);
#289=CARTESIAN_POINT('',(0.E0,2.8E1,0.E0));
#290=DIRECTION('',(0.E0,-1.E0,0.E0));
#291=DIRECTION('',(-1.E0,0.E0,0.E0));
#292=AXIS2_PLACEMENT_3D('',#289,#290,#291);
#294=CARTESIAN_POINT('',(0.E0,2.8E1,0.E0));
#295=DIRECTION('',(0.E0,1.E0,0.E0));
#296=DIRECTION('',(-1.E0,0.E0,0.E0));
#297=AXIS2_PLACEMENT_3D('',#294,#295,#296);
#299=CARTESIAN_POINT('',(-8.2E0,2.8E1,0.E0));
#300=CARTESIAN_POINT('',(-7.E0,0.E0,0.E0));
#301=VERTEX_POINT('',#299);
#302=VERTEX_POINT('',#300);
#303=CARTESIAN_POINT('',(-6.699724616190E0,0.E0,0.E0));
#304=CARTESIAN_POINT('',(-7.899724616190E0,2.8E1,0.E0));
#305=VERTEX_POINT('',#303);
#306=VERTEX_POINT('',#304);
#307=CARTESIAN_POINT('',(8.2E0,2.8E1,0.E0));
#308=CARTESIAN_POINT('',(7.E0,0.E0,0.E0));
#309=VERTEX_POINT('',#307);
#310=VERTEX_POINT('',#308);
#311=CARTESIAN_POINT('',(6.699724616190E0,0.E0,0.E0));
#312=CARTESIAN_POINT('',(7.899724616190E0,2.8E1,0.E0));
#313=VERTEX_POINT('',#311);
#314=VERTEX_POINT('',#312);
#315=CARTESIAN_POINT('',(0.E0,1.4E1,0.E0));
#316=DIRECTION('',(0.E0,1.E0,0.E0));
#317=DIRECTION('',(1.E0,0.E0,0.E0));
#318=AXIS2_PLACEMENT_3D('',#315,#316,#317);
#319=CONICAL_SURFACE('',#318,7.6E0,2.454031674527E0);
#321=ORIENTED_EDGE('',*,*,#320,.F.);
#323=ORIENTED_EDGE('',*,*,#322,.T.);
#325=ORIENTED_EDGE('',*,*,#324,.T.);
#327=ORIENTED_EDGE('',*,*,#326,.F.);
#328=EDGE_LOOP('',(#321,#323,#325,#327));
#329=FACE_OUTER_BOUND('',#328,.F.);
#330=ADVANCED_FACE('',(#329),#319,.T.);
#331=CARTESIAN_POINT('',(0.E0,1.4E1,0.E0));
#332=DIRECTION('',(0.E0,1.E0,0.E0));
#333=DIRECTION('',(1.E0,0.E0,0.E0));
#334=AXIS2_PLACEMENT_3D('',#331,#332,#333);
#335=CONICAL_SURFACE('',#334,7.6E0,2.454031674527E0);
#336=ORIENTED_EDGE('',*,*,#320,.T.);
#338=ORIENTED_EDGE('',*,*,#337,.T.);
#339=ORIENTED_EDGE('',*,*,#324,.F.);
#341=ORIENTED_EDGE('',*,*,#340,.F.);
#342=EDGE_LOOP('',(#336,#338,#339,#341));
#343=FACE_OUTER_BOUND('',#342,.F.);
#344=ADVANCED_FACE('',(#343),#335,.T.);
#345=CARTESIAN_POINT('',(0.E0,0.E0,0.E0));
#346=DIRECTION('',(0.E0,1.E0,0.E0));
#347=DIRECTION('',(1.E0,0.E0,0.E0));
#348=AXIS2_PLACEMENT_3D('',#345,#346,#347);
#349=PLANE('',#348);
#350=ORIENTED_EDGE('',*,*,#337,.F.);
#351=ORIENTED_EDGE('',*,*,#326,.T.);
#352=EDGE_LOOP('',(#350,#351));
#353=FACE_OUTER_BOUND('',#352,.F.);
#355=ORIENTED_EDGE('',*,*,#354,.F.);
#357=ORIENTED_EDGE('',*,*,#356,.T.);
#358=EDGE_LOOP('',(#355,#357));
#359=FACE_BOUND('',#358,.F.);
#360=ADVANCED_FACE('',(#353,#359),#349,.F.);
#361=CARTESIAN_POINT('',(0.E0,1.4E1,0.E0));
#362=DIRECTION('',(0.E0,1.E0,0.E0));
#363=DIRECTION('',(1.E0,0.E0,0.E0));
#364=AXIS2_PLACEMENT_3D('',#361,#362,#363);
#365=CONICAL_SURFACE('',#364,7.299724616190E0,2.454031674527E0);
#367=ORIENTED_EDGE('',*,*,#366,.F.);
#368=ORIENTED_EDGE('',*,*,#354,.T.);
#370=ORIENTED_EDGE('',*,*,#369,.T.);
#372=ORIENTED_EDGE('',*,*,#371,.F.);
#373=EDGE_LOOP('',(#367,#368,#370,#372));
#374=FACE_OUTER_BOUND('',#373,.F.);
#375=ADVANCED_FACE('',(#374),#365,.F.);
#376=CARTESIAN_POINT('',(0.E0,1.4E1,0.E0));
#377=DIRECTION('',(0.E0,1.E0,0.E0));
#378=DIRECTION('',(1.E0,0.E0,0.E0));
#379=AXIS2_PLACEMENT_3D('',#376,#377,#378);
#380=CONICAL_SURFACE('',#379,7.299724616190E0,2.454031674527E0);
#381=ORIENTED_EDGE('',*,*,#366,.T.);
#383=ORIENTED_EDGE('',*,*,#382,.T.);
#384=ORIENTED_EDGE('',*,*,#369,.F.);
#385=ORIENTED_EDGE('',*,*,#356,.F.);
#386=EDGE_LOOP('',(#381,#383,#384,#385));
#387=FACE_OUTER_BOUND('',#386,.F.);
#388=ADVANCED_FACE('',(#387),#380,.F.);
#389=CARTESIAN_POINT('',(0.E0,2.8E1,0.E0));
#390=DIRECTION('',(0.E0,1.E0,0.E0));
#391=DIRECTION('',(1.E0,0.E0,0.E0));
#392=AXIS2_PLACEMENT_3D('',#389,#390,#391);
#393=PLANE('',#392);
#394=ORIENTED_EDGE('',*,*,#322,.F.);
#395=ORIENTED_EDGE('',*,*,#340,.T.);
#396=EDGE_LOOP('',(#394,#395));
#397=FACE_OUTER_BOUND('',#396,.F.);
#398=ORIENTED_EDGE('',*,*,#382,.F.);
#399=ORIENTED_EDGE('',*,*,#371,.T.);
#400=EDGE_LOOP('',(#398,#399));
#401=FACE_BOUND('',#400,.F.);
#402=ADVANCED_FACE('',(#397,#401),#393,.T.);
#405=CARTESIAN_POINT('',(0.E0,0.E0,0.E0));
#406=DIRECTION('',(0.E0,-1.E0,0.E0));
#407=DIRECTION('',(-1.E0,0.E0,0.E0));
#408=AXIS2_PLACEMENT_3D('',#405,#406,#407);
#410=CARTESIAN_POINT('',(0.E0,0.E0,0.E0));
#411=DIRECTION('',(0.E0,1.E0,0.E0));
#412=DIRECTION('',(-1.E0,0.E0,0.E0));
#413=AXIS2_PLACEMENT_3D('',#410,#411,#412);
#415=CARTESIAN_POINT('',(0.E0,4.E0,0.E0));
#416=DIRECTION('',(0.E0,-1.E0,0.E0));
#417=DIRECTION('',(-1.E0,0.E0,0.E0));
#418=AXIS2_PLACEMENT_3D('',#415,#416,#417);
#420=DIRECTION('',(0.E0,-1.E0,0.E0));
#421=VECTOR('',#420,4.E0);
#422=CARTESIAN_POINT('',(-6.699724616190E0,4.E0,0.E0));
#423=LINE('',#422,#421);
#424=CARTESIAN_POINT('',(0.E0,4.E0,0.E0));
#425=DIRECTION('',(0.E0,1.E0,0.E0));
#426=DIRECTION('',(-1.E0,0.E0,0.E0));
#427=AXIS2_PLACEMENT_3D('',#424,#425,#426);
#429=DIRECTION('',(0.E0,-1.E0,0.E0));
#430=VECTOR('',#429,4.E0);
#431=CARTESIAN_POINT('',(6.699724616190E0,4.E0,0.E0));
#432=LINE('',#431,#430);
#433=DIRECTION('',(0.E0,1.E0,0.E0));
#434=VECTOR('',#433,3.7E0);
#435=CARTESIAN_POINT('',(-6.399724616190E0,0.E0,0.E0));
#436=LINE('',#435,#434);
#437=CARTESIAN_POINT('',(0.E0,0.E0,0.E0));
#438=DIRECTION('',(0.E0,1.E0,0.E0));
#439=DIRECTION('',(-1.E0,0.E0,0.E0));
#440=AXIS2_PLACEMENT_3D('',#437,#438,#439);
#442=DIRECTION('',(0.E0,1.E0,0.E0));
#443=VECTOR('',#442,3.7E0);
#444=CARTESIAN_POINT('',(6.399724616190E0,0.E0,0.E0));
#445=LINE('',#444,#443);
#446=CARTESIAN_POINT('',(0.E0,0.E0,0.E0));
#447=DIRECTION('',(0.E0,-1.E0,0.E0));
#448=DIRECTION('',(-1.E0,0.E0,0.E0));
#449=AXIS2_PLACEMENT_3D('',#446,#447,#448);
#451=CARTESIAN_POINT('',(0.E0,3.7E0,0.E0));
#452=DIRECTION('',(0.E0,1.E0,0.E0));
#453=DIRECTION('',(-1.E0,0.E0,0.E0));
#454=AXIS2_PLACEMENT_3D('',#451,#452,#453);
#456=CARTESIAN_POINT('',(0.E0,3.7E0,0.E0));
#457=DIRECTION('',(0.E0,-1.E0,0.E0));
#458=DIRECTION('',(-1.E0,0.E0,0.E0));
#459=AXIS2_PLACEMENT_3D('',#456,#457,#458);
#461=CARTESIAN_POINT('',(-6.399724616190E0,0.E0,0.E0));
#462=CARTESIAN_POINT('',(-6.399724616190E0,3.7E0,0.E0));
#463=VERTEX_POINT('',#461);
#464=VERTEX_POINT('',#462);
#465=CARTESIAN_POINT('',(-6.699724616190E0,4.E0,0.E0));
#466=CARTESIAN_POINT('',(-6.699724616190E0,0.E0,0.E0));
#467=VERTEX_POINT('',#465);
#468=VERTEX_POINT('',#466);
#469=CARTESIAN_POINT('',(6.399724616190E0,0.E0,0.E0));
#470=CARTESIAN_POINT('',(6.399724616190E0,3.7E0,0.E0));
#471=VERTEX_POINT('',#469);
#472=VERTEX_POINT('',#470);
#473=CARTESIAN_POINT('',(6.699724616190E0,4.E0,0.E0));
#474=CARTESIAN_POINT('',(6.699724616190E0,0.E0,0.E0));
#475=VERTEX_POINT('',#473);
#476=VERTEX_POINT('',#474);
#477=CARTESIAN_POINT('',(0.E0,0.E0,0.E0));
#478=DIRECTION('',(0.E0,-1.E0,0.E0));
#479=DIRECTION('',(-1.E0,0.E0,0.E0));
#480=AXIS2_PLACEMENT_3D('',#477,#478,#479);
#481=PLANE('',#480);
#483=ORIENTED_EDGE('',*,*,#482,.F.);
#485=ORIENTED_EDGE('',*,*,#484,.T.);
#486=EDGE_LOOP('',(#483,#485));
#487=FACE_OUTER_BOUND('',#486,.F.);
#489=ORIENTED_EDGE('',*,*,#488,.F.);
#491=ORIENTED_EDGE('',*,*,#490,.T.);
#492=EDGE_LOOP('',(#489,#491));
#493=FACE_BOUND('',#492,.F.);
#494=ADVANCED_FACE('',(#487,#493),#481,.T.);
#495=CARTESIAN_POINT('',(0.E0,4.2E0,0.E0));
#496=DIRECTION('',(0.E0,-1.E0,0.E0));
#497=DIRECTION('',(-1.E0,0.E0,0.E0));
#498=AXIS2_PLACEMENT_3D('',#495,#496,#497);
#499=CYLINDRICAL_SURFACE('',#498,6.699724616190E0);
#501=ORIENTED_EDGE('',*,*,#500,.T.);
#502=ORIENTED_EDGE('',*,*,#482,.T.);
#504=ORIENTED_EDGE('',*,*,#503,.F.);
#506=ORIENTED_EDGE('',*,*,#505,.F.);
#507=EDGE_LOOP('',(#501,#502,#504,#506));
#508=FACE_OUTER_BOUND('',#507,.F.);
#509=ADVANCED_FACE('',(#508),#499,.T.);
#510=CARTESIAN_POINT('',(0.E0,4.2E0,0.E0));
#511=DIRECTION('',(0.E0,-1.E0,0.E0));
#512=DIRECTION('',(-1.E0,0.E0,0.E0));
#513=AXIS2_PLACEMENT_3D('',#510,#511,#512);
#514=CYLINDRICAL_SURFACE('',#513,6.699724616190E0);
#515=ORIENTED_EDGE('',*,*,#500,.F.);
#517=ORIENTED_EDGE('',*,*,#516,.T.);
#518=ORIENTED_EDGE('',*,*,#503,.T.);
#519=ORIENTED_EDGE('',*,*,#484,.F.);
#520=EDGE_LOOP('',(#515,#517,#518,#519));
#521=FACE_OUTER_BOUND('',#520,.F.);
#522=ADVANCED_FACE('',(#521),#514,.T.);
#523=CARTESIAN_POINT('',(0.E0,4.E0,0.E0));
#524=DIRECTION('',(0.E0,-1.E0,0.E0));
#525=DIRECTION('',(-1.E0,0.E0,0.E0));
#526=AXIS2_PLACEMENT_3D('',#523,#524,#525);
#527=PLANE('',#526);
#528=ORIENTED_EDGE('',*,*,#516,.F.);
#529=ORIENTED_EDGE('',*,*,#505,.T.);
#530=EDGE_LOOP('',(#528,#529));
#531=FACE_OUTER_BOUND('',#530,.F.);
#532=ADVANCED_FACE('',(#531),#527,.F.);
#533=CARTESIAN_POINT('',(0.E0,4.2E0,0.E0));
#534=DIRECTION('',(0.E0,-1.E0,0.E0));
#535=DIRECTION('',(-1.E0,0.E0,0.E0));
#536=AXIS2_PLACEMENT_3D('',#533,#534,#535);
#537=CYLINDRICAL_SURFACE('',#536,6.399724616190E0);
#539=ORIENTED_EDGE('',*,*,#538,.F.);
#540=ORIENTED_EDGE('',*,*,#488,.T.);
#542=ORIENTED_EDGE('',*,*,#541,.T.);
#544=ORIENTED_EDGE('',*,*,#543,.F.);
#545=EDGE_LOOP('',(#539,#540,#542,#544));
#546=FACE_OUTER_BOUND('',#545,.F.);
#547=ADVANCED_FACE('',(#546),#537,.F.);
#548=CARTESIAN_POINT('',(0.E0,4.2E0,0.E0));
#549=DIRECTION('',(0.E0,-1.E0,0.E0));
#550=DIRECTION('',(-1.E0,0.E0,0.E0));
#551=AXIS2_PLACEMENT_3D('',#548,#549,#550);
#552=CYLINDRICAL_SURFACE('',#551,6.399724616190E0);
#553=ORIENTED_EDGE('',*,*,#538,.T.);
#555=ORIENTED_EDGE('',*,*,#554,.T.);
#556=ORIENTED_EDGE('',*,*,#541,.F.);
#557=ORIENTED_EDGE('',*,*,#490,.F.);
#558=EDGE_LOOP('',(#553,#555,#556,#557));
#559=FACE_OUTER_BOUND('',#558,.F.);
#560=ADVANCED_FACE('',(#559),#552,.F.);
#561=CARTESIAN_POINT('',(0.E0,3.7E0,0.E0));
#562=DIRECTION('',(0.E0,-1.E0,0.E0));
#563=DIRECTION('',(-1.E0,0.E0,0.E0));
#564=AXIS2_PLACEMENT_3D('',#561,#562,#563);
#565=PLANE('',#564);
#566=ORIENTED_EDGE('',*,*,#543,.T.);
#567=ORIENTED_EDGE('',*,*,#554,.F.);
#568=EDGE_LOOP('',(#566,#567));
#569=FACE_OUTER_BOUND('',#568,.F.);
#570=ADVANCED_FACE('',(#569),#565,.T.);
#574=DIMENSIONAL_EXPONENTS(0.E0,0.E0,0.E0,0.E0,0.E0,0.E0,0.E0);
#576=PLANE_ANGLE_MEASURE_WITH_UNIT(PLANE_ANGLE_MEASURE(1.745329251994E-2),#575);
#577=(CONVERSION_BASED_UNIT('DEGREE',#576)NAMED_UNIT(*)PLANE_ANGLE_UNIT());
#579=UNCERTAINTY_MEASURE_WITH_UNIT(LENGTH_MEASURE(4.185522479695E-3),#573,
'closure',
'Maximum model space distance between geometric entities at asserted connectivities');
#580=(GEOMETRIC_REPRESENTATION_CONTEXT(3)GLOBAL_UNCERTAINTY_ASSIGNED_CONTEXT((
#579))GLOBAL_UNIT_ASSIGNED_CONTEXT((#573,#577,#578))REPRESENTATION_CONTEXT
('ID1','3'));
#582=APPLICATION_CONTEXT(
'CONFIGURATION CONTROLLED 3D DESIGNS OF MECHANICAL PARTS AND ASSEMBLIES');
#583=APPLICATION_PROTOCOL_DEFINITION('international standard',
'config_control_design',1994,#582);
#584=DESIGN_CONTEXT('',#582,'design');
#585=MECHANICAL_CONTEXT('',#582,'mechanical');
#586=PRODUCT('191U9908','191U9908','NOT SPECIFIED',(#585));
#587=PRODUCT_DEFINITION_FORMATION_WITH_SPECIFIED_SOURCE('1','LAST_VERSION',#586,
.MADE.);
#591=PRODUCT_CATEGORY('part','');
#592=PRODUCT_RELATED_PRODUCT_CATEGORY('detail','',(#586));
#593=PRODUCT_CATEGORY_RELATIONSHIP('','',#591,#592);
#594=SECURITY_CLASSIFICATION_LEVEL('unclassified');
#595=SECURITY_CLASSIFICATION('','',#594);
#596=CC_DESIGN_SECURITY_CLASSIFICATION(#595,(#587));
#597=APPROVAL_STATUS('approved');
#598=APPROVAL(#597,'');
#599=CC_DESIGN_APPROVAL(#598,(#595,#587,#588));
#600=CALENDAR_DATE(123,4,4);
#601=COORDINATED_UNIVERSAL_TIME_OFFSET(3,0,.BEHIND.);
#602=LOCAL_TIME(9,54,3.9E1,#601);
#603=DATE_AND_TIME(#600,#602);
#604=APPROVAL_DATE_TIME(#603,#598);
#605=DATE_TIME_ROLE('creation_date');
#606=CC_DESIGN_DATE_AND_TIME_ASSIGNMENT(#603,#605,(#588));
#607=DATE_TIME_ROLE('classification_date');
#608=CC_DESIGN_DATE_AND_TIME_ASSIGNMENT(#603,#607,(#595));
#609=PERSON('UNSPECIFIED','UNSPECIFIED',$,$,$,$);
#610=ORGANIZATION('UNSPECIFIED','UNSPECIFIED','UNSPECIFIED');
#611=PERSON_AND_ORGANIZATION(#609,#610);
#612=APPROVAL_ROLE('approver');
#613=APPROVAL_PERSON_ORGANIZATION(#611,#598,#612);
#614=PERSON_AND_ORGANIZATION_ROLE('creator');
#615=CC_DESIGN_PERSON_AND_ORGANIZATION_ASSIGNMENT(#611,#614,(#587,#588));
#616=PERSON_AND_ORGANIZATION_ROLE('design_supplier');
#617=CC_DESIGN_PERSON_AND_ORGANIZATION_ASSIGNMENT(#611,#616,(#587));
#618=PERSON_AND_ORGANIZATION_ROLE('classification_officer');
#619=CC_DESIGN_PERSON_AND_ORGANIZATION_ASSIGNMENT(#611,#618,(#595));
#620=PERSON_AND_ORGANIZATION_ROLE('design_owner');
#621=CC_DESIGN_PERSON_AND_ORGANIZATION_ASSIGNMENT(#611,#620,(#586));
#5=CIRCLE('',#4,8.2E0);
#18=CIRCLE('',#17,8.2E0);
#23=CIRCLE('',#22,8.2E0);
#28=CIRCLE('',#27,8.2E0);
#33=CIRCLE('',#32,8.5E0);
#46=CIRCLE('',#45,8.5E0);
#51=CIRCLE('',#50,8.5E0);
#56=CIRCLE('',#55,8.5E0);
#61=CIRCLE('',#60,1.1E1);
#74=CIRCLE('',#73,1.1E1);
#79=CIRCLE('',#78,1.1E1);
#84=CIRCLE('',#83,1.1E1);
#114=EDGE_CURVE('',#87,#88,#9,.T.);
#116=EDGE_CURVE('',#87,#99,#5,.T.);
#118=EDGE_CURVE('',#99,#100,#13,.T.);
#120=EDGE_CURVE('',#88,#100,#28,.T.);
#131=EDGE_CURVE('',#88,#100,#23,.T.);
#134=EDGE_CURVE('',#87,#99,#18,.T.);
#144=EDGE_CURVE('',#91,#103,#33,.T.);
#146=EDGE_CURVE('',#91,#103,#46,.T.);
#160=EDGE_CURVE('',#91,#92,#37,.T.);
#163=EDGE_CURVE('',#103,#104,#41,.T.);
#165=EDGE_CURVE('',#92,#104,#56,.T.);
#176=EDGE_CURVE('',#92,#104,#51,.T.);
#188=EDGE_CURVE('',#95,#107,#61,.T.);
#190=EDGE_CURVE('',#95,#107,#74,.T.);
#204=EDGE_CURVE('',#95,#96,#65,.T.);
#207=EDGE_CURVE('',#107,#108,#69,.T.);
#209=EDGE_CURVE('',#96,#108,#84,.T.);
#220=EDGE_CURVE('',#96,#108,#79,.T.);
#241=CLOSED_SHELL('',(#124,#138,#154,#169,#182,#198,#213,#226,#240));
#242=MANIFOLD_SOLID_BREP('',#241);
#247=CIRCLE('',#246,8.2E0);
#260=CIRCLE('',#259,8.2E0);
#265=CIRCLE('',#264,7.E0);
#270=CIRCLE('',#269,7.E0);
#275=CIRCLE('',#274,6.699724616190E0);
#288=CIRCLE('',#287,6.699724616190E0);
#293=CIRCLE('',#292,7.899724616190E0);
#298=CIRCLE('',#297,7.899724616190E0);
#320=EDGE_CURVE('',#301,#302,#251,.T.);
#322=EDGE_CURVE('',#301,#309,#247,.T.);
#324=EDGE_CURVE('',#309,#310,#255,.T.);
#326=EDGE_CURVE('',#302,#310,#270,.T.);
#337=EDGE_CURVE('',#302,#310,#265,.T.);
#340=EDGE_CURVE('',#301,#309,#260,.T.);
#354=EDGE_CURVE('',#305,#313,#275,.T.);
#356=EDGE_CURVE('',#305,#313,#288,.T.);
#366=EDGE_CURVE('',#305,#306,#279,.T.);
#369=EDGE_CURVE('',#313,#314,#283,.T.);
#371=EDGE_CURVE('',#306,#314,#298,.T.);
#382=EDGE_CURVE('',#306,#314,#293,.T.);
#403=CLOSED_SHELL('',(#330,#344,#360,#375,#388,#402));
#404=MANIFOLD_SOLID_BREP('',#403);
#409=CIRCLE('',#408,6.699724616190E0);
#414=CIRCLE('',#413,6.699724616190E0);
#419=CIRCLE('',#418,6.699724616190E0);
#428=CIRCLE('',#427,6.699724616190E0);
#441=CIRCLE('',#440,6.399724616190E0);
#450=CIRCLE('',#449,6.399724616190E0);
#455=CIRCLE('',#454,6.399724616190E0);
#460=CIRCLE('',#459,6.399724616190E0);
#482=EDGE_CURVE('',#468,#476,#409,.T.);
#484=EDGE_CURVE('',#468,#476,#414,.T.);
#488=EDGE_CURVE('',#463,#471,#441,.T.);
#490=EDGE_CURVE('',#463,#471,#450,.T.);
#500=EDGE_CURVE('',#467,#468,#423,.T.);
#503=EDGE_CURVE('',#475,#476,#432,.T.);
#505=EDGE_CURVE('',#467,#475,#419,.T.);
#516=EDGE_CURVE('',#467,#475,#428,.T.);
#538=EDGE_CURVE('',#463,#464,#436,.T.);
#541=EDGE_CURVE('',#471,#472,#445,.T.);
#543=EDGE_CURVE('',#464,#472,#455,.T.);
#554=EDGE_CURVE('',#464,#472,#460,.T.);
#571=CLOSED_SHELL('',(#494,#509,#522,#532,#547,#560,#570));
#572=MANIFOLD_SOLID_BREP('',#571);
#573=(LENGTH_UNIT()NAMED_UNIT(*)SI_UNIT(.MILLI.,.METRE.));
#575=(NAMED_UNIT(*)PLANE_ANGLE_UNIT()SI_UNIT($,.RADIAN.));
#578=(NAMED_UNIT(*)SI_UNIT($,.STERADIAN.)SOLID_ANGLE_UNIT());
#581=ADVANCED_BREP_SHAPE_REPRESENTATION('',(#242,#404,#572),#580);
#588=PRODUCT_DEFINITION('design','',#587,#584);
#589=PRODUCT_DEFINITION_SHAPE('','SHAPE FOR 191U9908.',#588);
#590=SHAPE_DEFINITION_REPRESENTATION(#589,#581);
ENDSEC;
END-ISO-10303-21;
